ISO-10303-21;
HEADER;
/* Generated by software containing ST-Developer
 * from STEP Tools, Inc. (www.steptools.com) 
 */

FILE_DESCRIPTION(
/* description */ (''),
/* implementation_level */ '2;1');

FILE_NAME(
/* name */ 'QA_250_N.dxf',
/* time_stamp */ '2012-11-23T16:41:50+08:00',
/* author */ (''),
/* organization */ (''),
/* preprocessor_version */ 'ST-DEVELOPER v9',
/* originating_system */ 'UGS - NX 4.0',
/* authorisation */ '');

FILE_SCHEMA (('CONFIG_CONTROL_DESIGN'));
ENDSEC;

DATA;
#10=SHAPE_REPRESENTATION_RELATIONSHIP('None',
'relationship between Admi0027xmtj-None and Admi0027xmtj-None',#94,#11);
#11=ADVANCED_BREP_SHAPE_REPRESENTATION('Admi0027xmtj-None',(#95),#568);
#12=CC_DESIGN_APPROVAL(#24,(#82));
#13=CC_DESIGN_APPROVAL(#25,(#84));
#14=CC_DESIGN_APPROVAL(#26,(#31));
#15=APPROVAL_PERSON_ORGANIZATION(#69,#24,#18);
#16=APPROVAL_PERSON_ORGANIZATION(#70,#25,#19);
#17=APPROVAL_PERSON_ORGANIZATION(#71,#26,#20);
#18=APPROVAL_ROLE('approver');
#19=APPROVAL_ROLE('approver');
#20=APPROVAL_ROLE('approver');
#21=APPROVAL_DATE_TIME(#39,#24);
#22=APPROVAL_DATE_TIME(#40,#25);
#23=APPROVAL_DATE_TIME(#41,#26);
#24=APPROVAL(#27,' ');
#25=APPROVAL(#28,' ');
#26=APPROVAL(#29,' ');
#27=APPROVAL_STATUS('not_yet_approved');
#28=APPROVAL_STATUS('not_yet_approved');
#29=APPROVAL_STATUS('not_yet_approved');
#30=CC_DESIGN_SECURITY_CLASSIFICATION(#31,(#84));
#31=SECURITY_CLASSIFICATION(' ',' ',#32);
#32=SECURITY_CLASSIFICATION_LEVEL('confidential');
#33=CC_DESIGN_DATE_AND_TIME_ASSIGNMENT(#37,#35,(#82));
#34=CC_DESIGN_DATE_AND_TIME_ASSIGNMENT(#38,#36,(#31));
#35=DATE_TIME_ROLE('creation_date');
#36=DATE_TIME_ROLE('classification_date');
#37=DATE_AND_TIME(#52,#42);
#38=DATE_AND_TIME(#53,#43);
#39=DATE_AND_TIME(#54,#44);
#40=DATE_AND_TIME(#55,#45);
#41=DATE_AND_TIME(#56,#46);
#42=LOCAL_TIME(0,0,0.,#47);
#43=LOCAL_TIME(0,0,0.,#48);
#44=LOCAL_TIME(0,0,0.,#49);
#45=LOCAL_TIME(0,0,0.,#50);
#46=LOCAL_TIME(0,0,0.,#51);
#47=COORDINATED_UNIVERSAL_TIME_OFFSET(0,0,.BEHIND.);
#48=COORDINATED_UNIVERSAL_TIME_OFFSET(0,0,.BEHIND.);
#49=COORDINATED_UNIVERSAL_TIME_OFFSET(0,0,.BEHIND.);
#50=COORDINATED_UNIVERSAL_TIME_OFFSET(0,0,.BEHIND.);
#51=COORDINATED_UNIVERSAL_TIME_OFFSET(0,0,.BEHIND.);
#52=CALENDAR_DATE(0,1,1);
#53=CALENDAR_DATE(0,1,1);
#54=CALENDAR_DATE(0,1,1);
#55=CALENDAR_DATE(0,1,1);
#56=CALENDAR_DATE(0,1,1);
#57=CC_DESIGN_PERSON_AND_ORGANIZATION_ASSIGNMENT(#65,#61,(#82,#84));
#58=CC_DESIGN_PERSON_AND_ORGANIZATION_ASSIGNMENT(#66,#62,(#86));
#59=CC_DESIGN_PERSON_AND_ORGANIZATION_ASSIGNMENT(#67,#63,(#84));
#60=CC_DESIGN_PERSON_AND_ORGANIZATION_ASSIGNMENT(#68,#64,(#31));
#61=PERSON_AND_ORGANIZATION_ROLE('creator');
#62=PERSON_AND_ORGANIZATION_ROLE('design_owner');
#63=PERSON_AND_ORGANIZATION_ROLE('design_supplier');
#64=PERSON_AND_ORGANIZATION_ROLE('classification_officer');
#65=PERSON_AND_ORGANIZATION(#79,#72);
#66=PERSON_AND_ORGANIZATION(#79,#73);
#67=PERSON_AND_ORGANIZATION(#79,#74);
#68=PERSON_AND_ORGANIZATION(#79,#75);
#69=PERSON_AND_ORGANIZATION(#79,#76);
#70=PERSON_AND_ORGANIZATION(#79,#77);
#71=PERSON_AND_ORGANIZATION(#79,#78);
#72=ORGANIZATION(' ',' ',' ');
#73=ORGANIZATION(' ',' ',' ');
#74=ORGANIZATION(' ',' ',' ');
#75=ORGANIZATION(' ',' ',' ');
#76=ORGANIZATION(' ',' ',' ');
#77=ORGANIZATION(' ',' ',' ');
#78=ORGANIZATION(' ',' ',' ');
#79=PERSON(' ',' ',' ',(' '),$,$);
#80=SHAPE_DEFINITION_REPRESENTATION(#81,#94);
#81=PRODUCT_DEFINITION_SHAPE('','',#82);
#82=PRODUCT_DEFINITION(' ','',#84,#83);
#83=DESIGN_CONTEXT('',#93,'design');
#84=PRODUCT_DEFINITION_FORMATION_WITH_SPECIFIED_SOURCE(' ',' ',#86,.NOT_KNOWN.);
#85=PRODUCT_RELATED_PRODUCT_CATEGORY('detail','',(#86));
#86=PRODUCT('Admi0027xmtj','Admi0027xmtj',' ',(#91));
#87=PRODUCT_CATEGORY_RELATIONSHIP(' ',' ',#89,#90);
#88=PRODUCT_CATEGORY_RELATIONSHIP('','',#90,#85);
#89=PRODUCT_CATEGORY('part',' ');
#90=PRODUCT_CATEGORY(' ','');
#91=MECHANICAL_CONTEXT(' ',#93,'mechanical');
#92=APPLICATION_PROTOCOL_DEFINITION('international standard',
'config_control_design',1994,#93);
#93=APPLICATION_CONTEXT(
'configuration controlled 3D designs of mechanical parts and assemblies
');
#94=SHAPE_REPRESENTATION('Admi0027xmtj-None',(#355),#568);
#95=MANIFOLD_SOLID_BREP('',#96);
#96=CLOSED_SHELL('',(#121,#122,#123,#124,#125,#126,#127,#128,#129,#130,#131,
#132,#133,#134,#135));
#97=(
BOUNDED_CURVE()
B_SPLINE_CURVE(3,(#553,#554,#555,#556),.UNSPECIFIED.,.F.,.F.)
B_SPLINE_CURVE_WITH_KNOTS((4,4),(0.,1.),.UNSPECIFIED.)
CURVE()
GEOMETRIC_REPRESENTATION_ITEM()
RATIONAL_B_SPLINE_CURVE((1.,0.432282829392621,0.432282829392621,1.))
REPRESENTATION_ITEM('')
);
#98=TOROIDAL_SURFACE('',#371,16.25,9.801148);
#99=FACE_BOUND('',#162,.T.);
#100=FACE_BOUND('',#163,.T.);
#101=FACE_BOUND('',#165,.T.);
#102=FACE_BOUND('',#166,.T.);
#103=FACE_BOUND('',#169,.T.);
#104=FACE_BOUND('',#170,.T.);
#105=FACE_BOUND('',#174,.T.);
#106=FACE_BOUND('',#175,.T.);
#107=FACE_BOUND('',#176,.T.);
#108=CYLINDRICAL_SURFACE('',#360,16.30838);
#109=CYLINDRICAL_SURFACE('',#362,16.30838);
#110=CYLINDRICAL_SURFACE('',#369,12.);
#111=CYLINDRICAL_SURFACE('',#375,24.);
#112=CYLINDRICAL_SURFACE('',#383,4.99999999999995);
#113=B_SPLINE_CURVE_WITH_KNOTS('',3,(#476,#477,#478,#479),.UNSPECIFIED.,
.F.,.F.,(4,4),(0.,1.),.UNSPECIFIED.);
#114=B_SPLINE_CURVE_WITH_KNOTS('',3,(#481,#482,#483,#484),.UNSPECIFIED.,
.F.,.F.,(4,4),(0.,1.),.UNSPECIFIED.);
#115=B_SPLINE_CURVE_WITH_KNOTS('',3,(#490,#491,#492,#493,#494,#495,#496,
#497,#498,#499),.UNSPECIFIED.,.F.,.F.,(4,2,2,2,4),(0.,0.25,0.5,0.75,1.),
.UNSPECIFIED.);
#116=B_SPLINE_CURVE_WITH_KNOTS('',3,(#515,#516,#517,#518,#519,#520,#521,
#522,#523,#524),.UNSPECIFIED.,.F.,.F.,(4,2,2,2,4),(0.,0.25,0.5,0.75,1.),
.UNSPECIFIED.);
#117=B_SPLINE_CURVE_WITH_KNOTS('',1,(#529,#530),.UNSPECIFIED.,.F.,.F.,(2,
2),(0.,1.),.UNSPECIFIED.);
#118=B_SPLINE_CURVE_WITH_KNOTS('',1,(#534,#535),.UNSPECIFIED.,.F.,.F.,(2,
2),(0.,1.),.UNSPECIFIED.);
#119=ELLIPSE('',#359,16.318320680052,16.30838);
#120=ELLIPSE('',#361,16.318320680052,16.30838);
#121=ADVANCED_FACE('',(#145),#136,.T.);
#122=ADVANCED_FACE('',(#146),#108,.T.);
#123=ADVANCED_FACE('',(#147),#109,.T.);
#124=ADVANCED_FACE('',(#148),#137,.T.);
#125=ADVANCED_FACE('',(#149),#138,.T.);
#126=ADVANCED_FACE('',(#99,#100),#110,.T.);
#127=ADVANCED_FACE('',(#150),#98,.T.);
#128=ADVANCED_FACE('',(#101,#102),#111,.T.);
#129=ADVANCED_FACE('',(#151),#139,.T.);
#130=ADVANCED_FACE('',(#152),#140,.T.);
#131=ADVANCED_FACE('',(#103,#104,#153),#141,.T.);
#132=ADVANCED_FACE('',(#154),#142,.T.);
#133=ADVANCED_FACE('',(#155),#143,.T.);
#134=ADVANCED_FACE('',(#105,#106),#112,.F.);
#135=ADVANCED_FACE('',(#107,#156),#144,.F.);
#136=PLANE('',#358);
#137=PLANE('',#363);
#138=PLANE('',#364);
#139=PLANE('',#376);
#140=PLANE('',#377);
#141=PLANE('',#379);
#142=PLANE('',#380);
#143=PLANE('',#381);
#144=PLANE('',#384);
#145=FACE_OUTER_BOUND('',#157,.T.);
#146=FACE_OUTER_BOUND('',#158,.T.);
#147=FACE_OUTER_BOUND('',#159,.T.);
#148=FACE_OUTER_BOUND('',#160,.T.);
#149=FACE_OUTER_BOUND('',#161,.T.);
#150=FACE_OUTER_BOUND('',#164,.T.);
#151=FACE_OUTER_BOUND('',#167,.T.);
#152=FACE_OUTER_BOUND('',#168,.T.);
#153=FACE_OUTER_BOUND('',#171,.T.);
#154=FACE_OUTER_BOUND('',#172,.T.);
#155=FACE_OUTER_BOUND('',#173,.T.);
#156=FACE_OUTER_BOUND('',#177,.T.);
#157=EDGE_LOOP('',(#190,#191,#192,#193,#194,#195));
#158=EDGE_LOOP('',(#196,#197,#198));
#159=EDGE_LOOP('',(#199,#200,#201));
#160=EDGE_LOOP('',(#202,#203,#204,#205,#206,#207,#208));
#161=EDGE_LOOP('',(#209,#210,#211,#212,#213,#214,#215));
#162=EDGE_LOOP('',(#216,#217,#218,#219,#220,#221,#222,#223,#224,#225,#226,
#227));
#163=EDGE_LOOP('',(#228));
#164=EDGE_LOOP('',(#229,#230,#231,#232));
#165=EDGE_LOOP('',(#233,#234,#235));
#166=EDGE_LOOP('',(#236));
#167=EDGE_LOOP('',(#237));
#168=EDGE_LOOP('',(#238,#239,#240));
#169=EDGE_LOOP('',(#241));
#170=EDGE_LOOP('',(#242,#243));
#171=EDGE_LOOP('',(#244,#245,#246,#247,#248,#249));
#172=EDGE_LOOP('',(#250,#251,#252,#253,#254));
#173=EDGE_LOOP('',(#255,#256,#257));
#174=EDGE_LOOP('',(#258));
#175=EDGE_LOOP('',(#259));
#176=EDGE_LOOP('',(#260));
#177=EDGE_LOOP('',(#261));
#178=CIRCLE('',#356,12.);
#179=CIRCLE('',#357,24.000000125988);
#180=CIRCLE('',#365,12.);
#181=CIRCLE('',#366,12.);
#182=CIRCLE('',#367,12.);
#183=CIRCLE('',#368,12.);
#184=CIRCLE('',#370,24.);
#185=CIRCLE('',#372,24.);
#186=CIRCLE('',#373,24.);
#187=CIRCLE('',#374,24.);
#188=CIRCLE('',#378,4.99999999999995);
#189=CIRCLE('',#382,4.99999999999995);
#190=ORIENTED_EDGE('',*,*,#289,.T.);
#191=ORIENTED_EDGE('',*,*,#290,.T.);
#192=ORIENTED_EDGE('',*,*,#291,.T.);
#193=ORIENTED_EDGE('',*,*,#292,.F.);
#194=ORIENTED_EDGE('',*,*,#293,.F.);
#195=ORIENTED_EDGE('',*,*,#294,.T.);
#196=ORIENTED_EDGE('',*,*,#295,.T.);
#197=ORIENTED_EDGE('',*,*,#296,.T.);
#198=ORIENTED_EDGE('',*,*,#289,.F.);
#199=ORIENTED_EDGE('',*,*,#291,.F.);
#200=ORIENTED_EDGE('',*,*,#297,.T.);
#201=ORIENTED_EDGE('',*,*,#298,.F.);
#202=ORIENTED_EDGE('',*,*,#299,.F.);
#203=ORIENTED_EDGE('',*,*,#295,.F.);
#204=ORIENTED_EDGE('',*,*,#294,.F.);
#205=ORIENTED_EDGE('',*,*,#300,.F.);
#206=ORIENTED_EDGE('',*,*,#301,.F.);
#207=ORIENTED_EDGE('',*,*,#302,.F.);
#208=ORIENTED_EDGE('',*,*,#303,.F.);
#209=ORIENTED_EDGE('',*,*,#298,.T.);
#210=ORIENTED_EDGE('',*,*,#304,.T.);
#211=ORIENTED_EDGE('',*,*,#305,.T.);
#212=ORIENTED_EDGE('',*,*,#306,.T.);
#213=ORIENTED_EDGE('',*,*,#307,.T.);
#214=ORIENTED_EDGE('',*,*,#308,.T.);
#215=ORIENTED_EDGE('',*,*,#292,.T.);
#216=ORIENTED_EDGE('',*,*,#309,.F.);
#217=ORIENTED_EDGE('',*,*,#310,.T.);
#218=ORIENTED_EDGE('',*,*,#310,.F.);
#219=ORIENTED_EDGE('',*,*,#311,.T.);
#220=ORIENTED_EDGE('',*,*,#304,.F.);
#221=ORIENTED_EDGE('',*,*,#297,.F.);
#222=ORIENTED_EDGE('',*,*,#290,.F.);
#223=ORIENTED_EDGE('',*,*,#296,.F.);
#224=ORIENTED_EDGE('',*,*,#299,.T.);
#225=ORIENTED_EDGE('',*,*,#312,.T.);
#226=ORIENTED_EDGE('',*,*,#313,.T.);
#227=ORIENTED_EDGE('',*,*,#313,.F.);
#228=ORIENTED_EDGE('',*,*,#314,.F.);
#229=ORIENTED_EDGE('',*,*,#315,.F.);
#230=ORIENTED_EDGE('',*,*,#300,.T.);
#231=ORIENTED_EDGE('',*,*,#293,.T.);
#232=ORIENTED_EDGE('',*,*,#308,.F.);
#233=ORIENTED_EDGE('',*,*,#316,.T.);
#234=ORIENTED_EDGE('',*,*,#317,.T.);
#235=ORIENTED_EDGE('',*,*,#315,.T.);
#236=ORIENTED_EDGE('',*,*,#318,.F.);
#237=ORIENTED_EDGE('',*,*,#318,.T.);
#238=ORIENTED_EDGE('',*,*,#301,.T.);
#239=ORIENTED_EDGE('',*,*,#317,.F.);
#240=ORIENTED_EDGE('',*,*,#319,.F.);
#241=ORIENTED_EDGE('',*,*,#320,.T.);
#242=ORIENTED_EDGE('',*,*,#321,.F.);
#243=ORIENTED_EDGE('',*,*,#321,.T.);
#244=ORIENTED_EDGE('',*,*,#322,.T.);
#245=ORIENTED_EDGE('',*,*,#305,.F.);
#246=ORIENTED_EDGE('',*,*,#311,.F.);
#247=ORIENTED_EDGE('',*,*,#309,.T.);
#248=ORIENTED_EDGE('',*,*,#312,.F.);
#249=ORIENTED_EDGE('',*,*,#303,.T.);
#250=ORIENTED_EDGE('',*,*,#306,.F.);
#251=ORIENTED_EDGE('',*,*,#322,.F.);
#252=ORIENTED_EDGE('',*,*,#302,.T.);
#253=ORIENTED_EDGE('',*,*,#319,.T.);
#254=ORIENTED_EDGE('',*,*,#323,.T.);
#255=ORIENTED_EDGE('',*,*,#323,.F.);
#256=ORIENTED_EDGE('',*,*,#316,.F.);
#257=ORIENTED_EDGE('',*,*,#307,.F.);
#258=ORIENTED_EDGE('',*,*,#320,.F.);
#259=ORIENTED_EDGE('',*,*,#324,.T.);
#260=ORIENTED_EDGE('',*,*,#324,.F.);
#261=ORIENTED_EDGE('',*,*,#314,.T.);
#262=VERTEX_POINT('',#462);
#263=VERTEX_POINT('',#463);
#264=VERTEX_POINT('',#465);
#265=VERTEX_POINT('',#467);
#266=VERTEX_POINT('',#469);
#267=VERTEX_POINT('',#471);
#268=VERTEX_POINT('',#475);
#269=VERTEX_POINT('',#485);
#270=VERTEX_POINT('',#489);
#271=VERTEX_POINT('',#500);
#272=VERTEX_POINT('',#502);
#273=VERTEX_POINT('',#504);
#274=VERTEX_POINT('',#508);
#275=VERTEX_POINT('',#510);
#276=VERTEX_POINT('',#512);
#277=VERTEX_POINT('',#514);
#278=VERTEX_POINT('',#527);
#279=VERTEX_POINT('',#528);
#280=VERTEX_POINT('',#531);
#281=VERTEX_POINT('',#536);
#282=VERTEX_POINT('',#538);
#283=VERTEX_POINT('',#543);
#284=VERTEX_POINT('',#546);
#285=VERTEX_POINT('',#552);
#286=VERTEX_POINT('',#557);
#287=VERTEX_POINT('',#558);
#288=VERTEX_POINT('',#565);
#289=EDGE_CURVE('',#262,#263,#325,.T.);
#290=EDGE_CURVE('',#263,#264,#178,.T.);
#291=EDGE_CURVE('',#264,#265,#326,.T.);
#292=EDGE_CURVE('',#266,#265,#327,.T.);
#293=EDGE_CURVE('',#267,#266,#179,.T.);
#294=EDGE_CURVE('',#267,#262,#328,.T.);
#295=EDGE_CURVE('',#262,#268,#119,.T.);
#296=EDGE_CURVE('',#268,#263,#113,.T.);
#297=EDGE_CURVE('',#264,#269,#114,.T.);
#298=EDGE_CURVE('',#265,#269,#120,.T.);
#299=EDGE_CURVE('',#268,#270,#329,.T.);
#300=EDGE_CURVE('',#271,#267,#115,.T.);
#301=EDGE_CURVE('',#272,#271,#330,.T.);
#302=EDGE_CURVE('',#273,#272,#331,.T.);
#303=EDGE_CURVE('',#270,#273,#332,.T.);
#304=EDGE_CURVE('',#269,#274,#333,.T.);
#305=EDGE_CURVE('',#274,#275,#334,.T.);
#306=EDGE_CURVE('',#275,#276,#335,.T.);
#307=EDGE_CURVE('',#276,#277,#336,.T.);
#308=EDGE_CURVE('',#277,#266,#116,.T.);
#309=EDGE_CURVE('',#278,#279,#180,.T.);
#310=EDGE_CURVE('',#278,#280,#117,.T.);
#311=EDGE_CURVE('',#278,#274,#181,.T.);
#312=EDGE_CURVE('',#270,#279,#182,.T.);
#313=EDGE_CURVE('',#279,#281,#118,.T.);
#314=EDGE_CURVE('',#282,#282,#183,.T.);
#315=EDGE_CURVE('',#271,#277,#184,.T.);
#316=EDGE_CURVE('',#277,#283,#185,.T.);
#317=EDGE_CURVE('',#283,#271,#186,.T.);
#318=EDGE_CURVE('',#284,#284,#187,.T.);
#319=EDGE_CURVE('',#272,#283,#337,.T.);
#320=EDGE_CURVE('',#285,#285,#188,.T.);
#321=EDGE_CURVE('',#286,#287,#97,.T.);
#322=EDGE_CURVE('',#273,#275,#338,.T.);
#323=EDGE_CURVE('',#283,#276,#339,.T.);
#324=EDGE_CURVE('',#288,#288,#189,.T.);
#325=LINE('',#461,#340);
#326=LINE('',#466,#341);
#327=LINE('',#468,#342);
#328=LINE('',#472,#343);
#329=LINE('',#488,#344);
#330=LINE('',#501,#345);
#331=LINE('',#503,#346);
#332=LINE('',#505,#347);
#333=LINE('',#507,#348);
#334=LINE('',#509,#349);
#335=LINE('',#511,#350);
#336=LINE('',#513,#351);
#337=LINE('',#549,#352);
#338=LINE('',#559,#353);
#339=LINE('',#561,#354);
#340=VECTOR('',#387,1.);
#341=VECTOR('',#390,1.);
#342=VECTOR('',#391,1.);
#343=VECTOR('',#394,1.);
#344=VECTOR('',#405,1.);
#345=VECTOR('',#406,1.);
#346=VECTOR('',#407,1.);
#347=VECTOR('',#408,1.);
#348=VECTOR('',#411,1.);
#349=VECTOR('',#412,1.);
#350=VECTOR('',#413,1.);
#351=VECTOR('',#414,1.);
#352=VECTOR('',#441,1.);
#353=VECTOR('',#446,1.);
#354=VECTOR('',#449,1.);
#355=AXIS2_PLACEMENT_3D('',#460,#385,#386);
#356=AXIS2_PLACEMENT_3D('',#464,#388,#389);
#357=AXIS2_PLACEMENT_3D('',#470,#392,#393);
#358=AXIS2_PLACEMENT_3D('',#473,#395,#396);
#359=AXIS2_PLACEMENT_3D('',#474,#397,#398);
#360=AXIS2_PLACEMENT_3D('',#480,#399,#400);
#361=AXIS2_PLACEMENT_3D('',#486,#401,#402);
#362=AXIS2_PLACEMENT_3D('',#487,#403,#404);
#363=AXIS2_PLACEMENT_3D('',#506,#409,#410);
#364=AXIS2_PLACEMENT_3D('',#525,#415,#416);
#365=AXIS2_PLACEMENT_3D('',#526,#417,#418);
#366=AXIS2_PLACEMENT_3D('',#532,#419,#420);
#367=AXIS2_PLACEMENT_3D('',#533,#421,#422);
#368=AXIS2_PLACEMENT_3D('',#537,#423,#424);
#369=AXIS2_PLACEMENT_3D('',#539,#425,#426);
#370=AXIS2_PLACEMENT_3D('',#540,#427,#428);
#371=AXIS2_PLACEMENT_3D('',#541,#429,#430);
#372=AXIS2_PLACEMENT_3D('',#542,#431,#432);
#373=AXIS2_PLACEMENT_3D('',#544,#433,#434);
#374=AXIS2_PLACEMENT_3D('',#545,#435,#436);
#375=AXIS2_PLACEMENT_3D('',#547,#437,#438);
#376=AXIS2_PLACEMENT_3D('',#548,#439,#440);
#377=AXIS2_PLACEMENT_3D('',#550,#442,#443);
#378=AXIS2_PLACEMENT_3D('',#551,#444,#445);
#379=AXIS2_PLACEMENT_3D('',#560,#447,#448);
#380=AXIS2_PLACEMENT_3D('',#562,#450,#451);
#381=AXIS2_PLACEMENT_3D('',#563,#452,#453);
#382=AXIS2_PLACEMENT_3D('',#564,#454,#455);
#383=AXIS2_PLACEMENT_3D('',#566,#456,#457);
#384=AXIS2_PLACEMENT_3D('',#567,#458,#459);
#385=DIRECTION('',(0.,0.,1.));
#386=DIRECTION('',(1.,0.,0.));
#387=DIRECTION('',(0.,0.,-1.));
#388=DIRECTION('',(0.,-1.,0.));
#389=DIRECTION('',(0.,0.,1.));
#390=DIRECTION('',(0.,0.,-1.));
#391=DIRECTION('',(0.999390827019096,0.,0.034899496702501));
#392=DIRECTION('',(0.,-1.,0.));
#393=DIRECTION('',(0.,0.,-1.));
#394=DIRECTION('',(0.999390827019096,0.,-0.034899496702501));
#395=DIRECTION('',(0.,1.,0.));
#396=DIRECTION('',(0.,0.,1.));
#397=DIRECTION('',(-0.034899496702501,0.,-0.999390827019096));
#398=DIRECTION('',(0.999390827019096,0.,-0.034899496702501));
#399=DIRECTION('',(0.,0.,-1.));
#400=DIRECTION('',(-1.,0.,0.));
#401=DIRECTION('',(0.034899496702501,0.,-0.999390827019096));
#402=DIRECTION('',(-0.999390827019096,0.,-0.034899496702501));
#403=DIRECTION('',(0.,0.,-1.));
#404=DIRECTION('',(-1.,0.,0.));
#405=DIRECTION('',(0.,-1.,0.));
#406=DIRECTION('',(-0.999390827019096,0.,0.034899496702501));
#407=DIRECTION('',(-0.999316610599818,-0.0121867879341441,0.0348969050080309));
#408=DIRECTION('',(-0.999390827019096,0.,0.034899496702501));
#409=DIRECTION('',(0.034899496702501,0.,0.999390827019096));
#410=DIRECTION('',(0.999390827019096,0.,-0.034899496702501));
#411=DIRECTION('',(0.,-1.,0.));
#412=DIRECTION('',(-0.999390827019096,0.,-0.034899496702501));
#413=DIRECTION('',(-0.999316610599818,-0.0121867879341441,-0.0348969050080309));
#414=DIRECTION('',(-0.999390827019096,0.,-0.034899496702501));
#415=DIRECTION('',(0.034899496702501,0.,-0.999390827019096));
#416=DIRECTION('',(-0.999390827019096,0.,-0.034899496702501));
#417=DIRECTION('',(0.,-1.,0.));
#418=DIRECTION('',(0.,0.,-1.));
#419=DIRECTION('',(0.,1.,0.));
#420=DIRECTION('',(0.,0.,1.));
#421=DIRECTION('',(0.,1.,0.));
#422=DIRECTION('',(0.,0.,1.));
#423=DIRECTION('',(0.,1.,0.));
#424=DIRECTION('',(0.,0.,1.));
#425=DIRECTION('',(0.,1.,0.));
#426=DIRECTION('',(0.,0.,1.));
#427=DIRECTION('',(0.,-1.,0.));
#428=DIRECTION('',(0.,0.,-1.));
#429=DIRECTION('',(0.,-1.,0.));
#430=DIRECTION('',(0.,0.,-1.));
#431=DIRECTION('',(0.,-1.,0.));
#432=DIRECTION('',(0.,0.,-1.));
#433=DIRECTION('',(0.,-1.,0.));
#434=DIRECTION('',(0.,0.,-1.));
#435=DIRECTION('',(0.,-1.,0.));
#436=DIRECTION('',(0.,0.,-1.));
#437=DIRECTION('',(0.,-1.,0.));
#438=DIRECTION('',(0.,0.,-1.));
#439=DIRECTION('',(0.,-1.,0.));
#440=DIRECTION('',(0.,0.,-1.));
#441=DIRECTION('',(0.,0.,-1.));
#442=DIRECTION('',(0.,-1.,0.));
#443=DIRECTION('',(0.,0.,-1.));
#444=DIRECTION('',(0.,1.,0.));
#445=DIRECTION('',(0.,0.,1.));
#446=DIRECTION('',(0.,0.,-1.));
#447=DIRECTION('',(0.,-1.,0.));
#448=DIRECTION('',(0.,0.,-1.));
#449=DIRECTION('',(0.,0.,-1.));
#450=DIRECTION('',(0.0121942152169939,-0.999925647793495,0.));
#451=DIRECTION('',(0.999925647793496,0.0121942152169939,0.));
#452=DIRECTION('',(0.,-1.,0.));
#453=DIRECTION('',(0.,0.,-1.));
#454=DIRECTION('',(0.,1.,0.));
#455=DIRECTION('',(0.,0.,1.));
#456=DIRECTION('',(0.,1.,0.));
#457=DIRECTION('',(0.,0.,1.));
#458=DIRECTION('',(0.,-1.,0.));
#459=DIRECTION('',(0.,0.,-1.));
#460=CARTESIAN_POINT('',(0.,0.,0.));
#461=CARTESIAN_POINT('',(350.220297841292,110.25,12.));
#462=CARTESIAN_POINT('',(350.220297841292,110.25,12.0097674146106));
#463=CARTESIAN_POINT('',(350.220297841292,110.250000006879,11.9967398364061));
#464=CARTESIAN_POINT('',(350.5,110.250000006879,0.));
#465=CARTESIAN_POINT('',(350.220297841292,110.25,-11.9967398364061));
#466=CARTESIAN_POINT('',(350.220297841292,110.25,12.));
#467=CARTESIAN_POINT('',(350.220297841292,110.25,-12.0097674146106));
#468=CARTESIAN_POINT('',(350.5,110.25,-12.));
#469=CARTESIAN_POINT('',(165.851508575413,110.25,-18.448067406037));
#470=CARTESIAN_POINT('',(150.5,110.250000013758,0.));
#471=CARTESIAN_POINT('',(165.851508575413,110.25,18.448067406037));
#472=CARTESIAN_POINT('',(350.5,110.25,12.));
#473=CARTESIAN_POINT('',(126.5,110.250000006879,0.));
#474=CARTESIAN_POINT('',(335.958738,102.339806,12.5077920584211));
#475=CARTESIAN_POINT('',(350.500000000001,109.723230521976,12.));
#476=CARTESIAN_POINT('',(350.500000000001,109.723230521976,12.));
#477=CARTESIAN_POINT('',(350.410167468976,109.9001509152,12.));
#478=CARTESIAN_POINT('',(350.316948409972,110.075745377558,11.998993229667));
#479=CARTESIAN_POINT('',(350.220297841292,110.25,11.9967398364061));
#480=CARTESIAN_POINT('',(335.958738,102.339806,12.));
#481=CARTESIAN_POINT('',(350.220297841292,110.25,-11.9967398364061));
#482=CARTESIAN_POINT('',(350.317057432237,110.075548817579,-11.9989957715045));
#483=CARTESIAN_POINT('',(350.410268055513,109.899952815363,-12.));
#484=CARTESIAN_POINT('',(350.500000000001,109.723230521976,-12.));
#485=CARTESIAN_POINT('',(350.500000000001,109.723230521976,-12.));
#486=CARTESIAN_POINT('',(335.958738,102.339806,-12.5077920584211));
#487=CARTESIAN_POINT('',(335.958738,102.339806,12.));
#488=CARTESIAN_POINT('',(350.500000000001,89.75,12.));
#489=CARTESIAN_POINT('',(350.5,100.25,12.));
#490=CARTESIAN_POINT('',(165.851508454308,98.2499999041404,18.4480674102661));
#491=CARTESIAN_POINT('',(166.773962335542,98.9801572480861,18.4158546109127));
#492=CARTESIAN_POINT('',(167.566440756363,99.8680766958701,18.388180654652));
#493=CARTESIAN_POINT('',(168.683681306459,101.909865120945,18.3491657549353));
#494=CARTESIAN_POINT('',(169.001085705632,103.073940540822,18.3380817490761));
#495=CARTESIAN_POINT('',(169.00592157296,105.39809237696,18.3379128768679));
#496=CARTESIAN_POINT('',(168.694004735803,106.567335078929,18.3488052528388));
#497=CARTESIAN_POINT('',(167.567780416432,108.633368021221,18.3881338726916));
#498=CARTESIAN_POINT('',(166.775461863352,109.518655796143,18.4158022462477));
#499=CARTESIAN_POINT('',(165.851508575413,110.25,18.448067406037));
#500=CARTESIAN_POINT('',(165.85150835244,98.25,18.4480674138234));
#501=CARTESIAN_POINT('',(350.5,98.25,12.));
#502=CARTESIAN_POINT('',(174.5,98.25,18.1460554305476));
#503=CARTESIAN_POINT('',(351.393334567913,100.407235787414,11.9688040694749));
#504=CARTESIAN_POINT('',(338.5,100.25,12.419049233901));
#505=CARTESIAN_POINT('',(350.5,100.25,12.));
#506=CARTESIAN_POINT('',(350.5,173.75,12.));
#507=CARTESIAN_POINT('',(350.500000000001,89.75,-12.));
#508=CARTESIAN_POINT('',(350.500000000001,100.25,-12.));
#509=CARTESIAN_POINT('',(350.5,100.25,-12.));
#510=CARTESIAN_POINT('',(338.5,100.25,-12.419049233901));
#511=CARTESIAN_POINT('',(351.393334567913,100.407235787414,-11.9688040694749));
#512=CARTESIAN_POINT('',(174.5,98.25,-18.1460554305476));
#513=CARTESIAN_POINT('',(350.5,98.25,-12.));
#514=CARTESIAN_POINT('',(165.85150835244,98.25,-18.4480674138234));
#515=CARTESIAN_POINT('',(165.851508454308,98.2499999041404,-18.4480674102661));
#516=CARTESIAN_POINT('',(166.773962335542,98.9801572480861,-18.4158546109127));
#517=CARTESIAN_POINT('',(167.566440756363,99.8680766958701,-18.388180654652));
#518=CARTESIAN_POINT('',(168.683681306459,101.909865120945,-18.3491657549353));
#519=CARTESIAN_POINT('',(169.001085705632,103.073940540822,-18.3380817490761));
#520=CARTESIAN_POINT('',(169.00592157296,105.39809237696,-18.3379128768679));
#521=CARTESIAN_POINT('',(168.694004735803,106.567335078929,-18.3488052528388));
#522=CARTESIAN_POINT('',(167.567780416432,108.633368021221,-18.3881338726916));
#523=CARTESIAN_POINT('',(166.775461863352,109.518655796143,-18.4158022462477));
#524=CARTESIAN_POINT('',(165.851508575413,110.25,-18.448067406037));
#525=CARTESIAN_POINT('',(350.5,173.75,-12.));
#526=CARTESIAN_POINT('',(350.5,100.25,0.));
#527=CARTESIAN_POINT('',(351.337077684928,100.25,-11.9707686031179));
#528=CARTESIAN_POINT('',(351.337077684928,100.25,11.9707686031179));
#529=CARTESIAN_POINT('',(351.337077684928,100.25,-11.9707686031179));
#530=CARTESIAN_POINT('',(351.337077684928,107.768427073474,-11.9707686031179));
#531=CARTESIAN_POINT('',(351.337077684928,107.768427073474,-11.9707686031179));
#532=CARTESIAN_POINT('',(350.5,100.25,0.));
#533=CARTESIAN_POINT('',(350.5,100.25,0.));
#534=CARTESIAN_POINT('',(351.337077684928,100.25,11.9707686031179));
#535=CARTESIAN_POINT('',(351.337077684928,107.768427073474,11.9707686031179));
#536=CARTESIAN_POINT('',(351.337077684928,107.768427073474,11.9707686031179));
#537=CARTESIAN_POINT('',(350.5,119.25,0.));
#538=CARTESIAN_POINT('',(350.5,119.25,12.));
#539=CARTESIAN_POINT('',(350.5,89.75,0.));
#540=CARTESIAN_POINT('',(150.5,98.25,0.));
#541=CARTESIAN_POINT('',(150.5,104.25,0.));
#542=CARTESIAN_POINT('',(150.5,98.25,0.));
#543=CARTESIAN_POINT('',(174.5,98.25,0.));
#544=CARTESIAN_POINT('',(150.5,98.25,0.));
#545=CARTESIAN_POINT('',(150.5,63.25,0.));
#546=CARTESIAN_POINT('',(150.5,63.25,-24.));
#547=CARTESIAN_POINT('',(150.5,51.25,0.));
#548=CARTESIAN_POINT('',(150.5,63.25,0.));
#549=CARTESIAN_POINT('',(174.5,98.25,12.));
#550=CARTESIAN_POINT('',(174.5,98.25,12.));
#551=CARTESIAN_POINT('',(350.5,100.25,0.));
#552=CARTESIAN_POINT('',(350.5,100.25,4.99999999999995));
#553=CARTESIAN_POINT('',(352.132666684978,100.25,10.878161586213));
#554=CARTESIAN_POINT('',(368.723151663756,100.25,8.38815149601431));
#555=CARTESIAN_POINT('',(368.723151663756,100.25,-8.38815149601431));
#556=CARTESIAN_POINT('',(352.132666684978,100.25,-10.878161586213));
#557=CARTESIAN_POINT('',(352.132666684978,100.25,10.878161586213));
#558=CARTESIAN_POINT('',(352.132666684978,100.25,-10.878161586213));
#559=CARTESIAN_POINT('',(338.5,100.25,12.));
#560=CARTESIAN_POINT('',(343.999999661379,100.25,12.));
#561=CARTESIAN_POINT('',(174.5,98.25,12.));
#562=CARTESIAN_POINT('',(338.5,100.25,12.));
#563=CARTESIAN_POINT('',(174.5,98.25,12.));
#564=CARTESIAN_POINT('',(350.5,119.25,0.));
#565=CARTESIAN_POINT('',(350.5,119.25,4.99999999999995));
#566=CARTESIAN_POINT('',(350.5,89.75,0.));
#567=CARTESIAN_POINT('',(362.5,119.25,0.));
#568=(
GEOMETRIC_REPRESENTATION_CONTEXT(3)
GLOBAL_UNCERTAINTY_ASSIGNED_CONTEXT((#569))
GLOBAL_UNIT_ASSIGNED_CONTEXT((#575,#571,#570))
REPRESENTATION_CONTEXT('QA_250_N','TOP_LEVEL_ASSEMBLY_PART')
);
#569=UNCERTAINTY_MEASURE_WITH_UNIT(LENGTH_MEASURE(0.0508),#575,
'DISTANCE_ACCURACY_VALUE','Maximum Tolerance applied to model');
#570=(
NAMED_UNIT(*)
SI_UNIT($,.STERADIAN.)
SOLID_ANGLE_UNIT()
);
#571=(
CONVERSION_BASED_UNIT('DEGREE',#573)
NAMED_UNIT(#572)
PLANE_ANGLE_UNIT()
);
#572=DIMENSIONAL_EXPONENTS(0.,0.,0.,0.,0.,0.,0.);
#573=PLANE_ANGLE_MEASURE_WITH_UNIT(PLANE_ANGLE_MEASURE(0.0174532925),#574);
#574=(
NAMED_UNIT(*)
PLANE_ANGLE_UNIT()
SI_UNIT($,.RADIAN.)
);
#575=(
LENGTH_UNIT()
NAMED_UNIT(*)
SI_UNIT(.MILLI.,.METRE.)
);
ENDSEC;
END-ISO-10303-21;
